                                                                        S      1
,,9HI-DEAS 14,57Hd:\local\WSIDEASROISS09\users\Hucbourg\har_port_label.iG      1
gs,,28HI-DEAS 3D IGES Translator 14,32,38,6,308,15,3HAny,1.0D0,2,2HMM,1,G      2
0.0D0,15H20110803.011254,.01D0,10000000.0D0,,,11,0,15H20110803.011254,; G      3
     128       1       0       0       0       0       0       000010001D      1
     128       0       6       6       1                      F3       3D      2
     502       7       0       0       0       0       0       000010000D      3
     502       0       0       7       1                               0D      4
     126      14       0       0       0       0       0       000010001D      5
     126       0       6       3       1                      E9       9D      6
     504      17       0       0       0       0       0       000010001D      7
     504       0       0       3       1                               0D      8
     126      20       0       0       0       0       0       000010500D      9
     126       0       0       2       1                               0D     10
     126      22       0       0       0       0       0       000010001D     11
     126       0       6       3       1                     E10      10D     12
     126      25       0       0       0       0       0       000010500D     13
     126       0       0       2       1                               0D     14
     126      27       0       0       0       0       0       000010001D     15
     126       0       6       3       1                     E11      11D     16
     126      30       0       0       0       0       0       000010500D     17
     126       0       0       2       1                               0D     18
     126      32       0       0       0       0       0       000010001D     19
     126       0       6       3       1                      E6       6D     20
     126      35       0       0       0       0       0       000010500D     21
     126       0       0       2       1                               0D     22
     508      37       0       0       0       0       0       000010001D     23
     508       0       0       2       1                               0D     24
     510      39       0       0       0       0       0       000010001D     25
     510       0       6       1       1                      F3       3D     26
     128      40       0       0       0       0       0       000010001D     27
     128       0       6       6       1                      F2       2D     28
     126      46       0       0       0       0       0       000010001D     29
     126       0       6       3       1                      E5       5D     30
     126      49       0       0       0       0       0       000010500D     31
     126       0       0       2       1                               0D     32
     126      51       0       0       0       0       0       000010500D     33
     126       0       0       2       1                               0D     34
     126      53       0       0       0       0       0       000010001D     35
     126       0       6       3       1                      E7       7D     36
     126      56       0       0       0       0       0       000010500D     37
     126       0       0       2       1                               0D     38
     126      58       0       0       0       0       0       000010001D     39
     126       0       6       3       1                      E2       2D     40
     126      61       0       0       0       0       0       000010500D     41
     126       0       0       2       1                               0D     42
     508      63       0       0       0       0       0       000010001D     43
     508       0       0       2       1                               0D     44
     510      65       0       0       0       0       0       000010001D     45
     510       0       6       1       1                      F2       2D     46
     128      66       0       0       0       0       0       000010001D     47
     128       0       6       6       1                      F5       5D     48
     126      72       0       0       0       0       0       000010001D     49
     126       0       6       3       1                     E15      15D     50
     126      75       0       0       0       0       0       000010500D     51
     126       0       0       3       1                               0D     52
     126      78       0       0       0       0       0       000010001D     53
     126       0       6       3       1                      E3       3D     54
     126      81       0       0       0       0       0       000010500D     55
     126       0       0       3       1                               0D     56
     126      84       0       0       0       0       0       000010500D     57
     126       0       0       3       1                               0D     58
     126      87       0       0       0       0       0       000010500D     59
     126       0       0       3       1                               0D     60
     508      90       0       0       0       0       0       000010001D     61
     508       0       0       2       1                               0D     62
     510      92       0       0       0       0       0       000010001D     63
     510       0       6       1       1                      F5       5D     64
     128      93       0       0       0       0       0       000010001D     65
     128       0       6       6       1                      F4       4D     66
     126      99       0       0       0       0       0       000010001D     67
     126       0       6       3       1                     E13      13D     68
     126     102       0       0       0       0       0       000010500D     69
     126       0       0       2       1                               0D     70
     126     104       0       0       0       0       0       000010001D     71
     126       0       6       3       1                      E4       4D     72
     126     107       0       0       0       0       0       000010500D     73
     126       0       0       2       1                               0D     74
     126     109       0       0       0       0       0       000010500D     75
     126       0       0       2       1                               0D     76
     126     111       0       0       0       0       0       000010500D     77
     126       0       0       2       1                               0D     78
     508     113       0       0       0       0       0       000010001D     79
     508       0       0       2       1                               0D     80
     510     115       0       0       0       0       0       000010001D     81
     510       0       6       1       1                      F4       4D     82
     128     116       0       0       0       0       0       000010001D     83
     128       0       6       6       1                      F6       6D     84
     126     122       0       0       0       0       0       000010001D     85
     126       0       6       3       1                      E1       1D     86
     126     125       0       0       0       0       0       000010500D     87
     126       0       0       3       1                               0D     88
     126     128       0       0       0       0       0       000010500D     89
     126       0       0       3       1                               0D     90
     126     131       0       0       0       0       0       000010500D     91
     126       0       0       3       1                               0D     92
     126     134       0       0       0       0       0       000010500D     93
     126       0       0       3       1                               0D     94
     508     137       0       0       0       0       0       000010001D     95
     508       0       0       2       1                               0D     96
     510     139       0       0       0       0       0       000010001D     97
     510       0       6       1       1                      F6       6D     98
     128     140       0       0       0       0       0       000010001D     99
     128       0       6       6       1                      F1       1D    100
     126     146       0       0       0       0       0       000010500D    101
     126       0       0       2       1                               0D    102
     126     148       0       0       0       0       0       000010500D    103
     126       0       0       2       1                               0D    104
     126     150       0       0       0       0       0       000010500D    105
     126       0       0       2       1                               0D    106
     126     152       0       0       0       0       0       000010500D    107
     126       0       0       2       1                               0D    108
     508     154       0       0       0       0       0       000010001D    109
     508       0       0       2       1                               0D    110
     510     156       0       0       0       0       0       000010001D    111
     510       0       6       1       1                      F1       1D    112
     514     157       0       0       0       0       0       000010001D    113
     514       0       0       1       1                               0D    114
     186     158       0       0       0       0       0       000000001D    115
     186       0       0       1       0                               0D    116
128,1,1,1,1,0,0,1,0,0,0.0D0,0.0D0,13.75D0,13.75D0,0.0D0,0.0D0,         1P      1
1.0D0,1.0D0,1.0D0,1.0D0,1.0D0,1.0D0,-47.497011680261D0,                1P      2
-15.272229570452D0,0.0D0,-47.497011680261D0,-26.272229570452D0,        1P      3
0.0D0,-47.497011680261D0,-15.272229570452D0,.8D0,                      1P      4
-47.497011680261D0,-26.272229570452D0,.8D0,0.0D0,13.75D0,0.0D0,        1P      5
1.0D0;                                                                 1P      6
502,8,-47.497011680261D0,-15.272229570452D0,0.0D0,                     3P      7
-47.497011680261D0,-26.272229570452D0,0.0D0,-47.497011680261D0,        3P      8
-26.272229570452D0,.8D0,-47.497011680261D0,-15.272229570452D0,         3P      9
.8D0,-25.497011680261D0,-15.272229570452D0,0.0D0,                      3P     10
-25.497011680261D0,-15.272229570452D0,.8D0,-25.497011680261D0,         3P     11
-26.272229570452D0,.8D0,-25.497011680261D0,-26.272229570452D0,         3P     12
0.0D0;                                                                 3P     13
126,1,1,0,0,1,0,0.0D0,0.0D0,13.75D0,13.75D0,1.0D0,1.0D0,               5P     14
-47.497011680261D0,-15.272229570452D0,0.0D0,-47.497011680261D0,        5P     15
-26.272229570452D0,0.0D0,0.0D0,13.75D0,0.0D0,0.0D0,0.0D0;              5P     16
504,12,5,3,1,3,2,11,3,2,3,3,15,3,3,3,4,19,3,1,3,4,29,3,5,3,1,35,       7P     17
3,4,3,6,39,3,5,3,6,49,3,7,3,3,53,3,6,3,7,67,3,2,3,8,71,3,7,3,8,        7P     18
85,3,8,3,5;                                                            7P     19
126,1,1,0,0,1,0,0.0D0,0.0D0,1.0D0,1.0D0,1.0D0,1.0D0,0.0D0,0.0D0,       9P     20
0.0D0,13.75D0,0.0D0,0.0D0,0.0D0,1.0D0,0.0D0,0.0D0,0.0D0;               9P     21
126,1,1,0,0,1,0,0.0D0,0.0D0,1.0D0,1.0D0,1.0D0,1.0D0,                  11P     22
-47.497011680261D0,-26.272229570452D0,0.0D0,-47.497011680261D0,       11P     23
-26.272229570452D0,.8D0,0.0D0,1.0D0,0.0D0,0.0D0,0.0D0;                11P     24
126,1,1,0,0,1,0,0.0D0,0.0D0,1.0D0,1.0D0,1.0D0,1.0D0,13.75D0,          13P     25
0.0D0,0.0D0,13.75D0,1.0D0,0.0D0,0.0D0,1.0D0,0.0D0,0.0D0,0.0D0;        13P     26
126,1,1,0,0,1,0,0.0D0,0.0D0,13.75D0,13.75D0,1.0D0,1.0D0,              15P     27
-47.497011680261D0,-26.272229570452D0,.8D0,-47.497011680261D0,        15P     28
-15.272229570452D0,.8D0,0.0D0,13.75D0,0.0D0,0.0D0,0.0D0;              15P     29
126,1,1,0,0,1,0,0.0D0,0.0D0,1.0D0,1.0D0,1.0D0,1.0D0,13.75D0,          17P     30
1.0D0,0.0D0,0.0D0,1.0D0,0.0D0,0.0D0,1.0D0,0.0D0,0.0D0,0.0D0;          17P     31
126,1,1,0,0,1,0,0.0D0,0.0D0,1.0D0,1.0D0,1.0D0,1.0D0,                  19P     32
-47.497011680261D0,-15.272229570452D0,0.0D0,-47.497011680261D0,       19P     33
-15.272229570452D0,.8D0,0.0D0,1.0D0,0.0D0,0.0D0,0.0D0;                19P     34
126,1,1,0,0,1,0,0.0D0,0.0D0,1.0D0,1.0D0,1.0D0,1.0D0,0.0D0,1.0D0,      21P     35
0.0D0,0.0D0,0.0D0,0.0D0,0.0D0,1.0D0,0.0D0,0.0D0,0.0D0;                21P     36
508,4,0,7,1,1,1,1,9,0,7,2,1,1,1,13,0,7,3,1,1,1,17,0,7,4,0,1,1,        23P     37
21;                                                                   23P     38
510,1,1,1,23;                                                         25P     39
128,1,1,1,1,0,0,1,0,0,0.0D0,0.0D0,27.5D0,27.5D0,0.0D0,0.0D0,          27P     40
1.0D0,1.0D0,1.0D0,1.0D0,1.0D0,1.0D0,-25.497011680261D0,               27P     41
-15.272229570452D0,0.0D0,-47.497011680261D0,-15.272229570452D0,       27P     42
0.0D0,-25.497011680261D0,-15.272229570452D0,.8D0,                     27P     43
-47.497011680261D0,-15.272229570452D0,.8D0,0.0D0,27.5D0,0.0D0,        27P     44
1.0D0;                                                                27P     45
126,1,1,0,0,1,0,0.0D0,0.0D0,27.5D0,27.5D0,1.0D0,1.0D0,                29P     46
-25.497011680261D0,-15.272229570452D0,0.0D0,-47.497011680261D0,       29P     47
-15.272229570452D0,0.0D0,0.0D0,27.5D0,0.0D0,0.0D0,0.0D0;              29P     48
126,1,1,0,0,1,0,0.0D0,0.0D0,1.0D0,1.0D0,1.0D0,1.0D0,0.0D0,0.0D0,      31P     49
0.0D0,27.5D0,0.0D0,0.0D0,0.0D0,1.0D0,0.0D0,0.0D0,0.0D0;               31P     50
126,1,1,0,0,1,0,0.0D0,0.0D0,1.0D0,1.0D0,1.0D0,1.0D0,27.5D0,           33P     51
0.0D0,0.0D0,27.5D0,1.0D0,0.0D0,0.0D0,1.0D0,0.0D0,0.0D0,0.0D0;         33P     52
126,1,1,0,0,1,0,0.0D0,0.0D0,27.5D0,27.5D0,1.0D0,1.0D0,                35P     53
-47.497011680261D0,-15.272229570452D0,.8D0,-25.497011680261D0,        35P     54
-15.272229570452D0,.8D0,0.0D0,27.5D0,0.0D0,0.0D0,0.0D0;               35P     55
126,1,1,0,0,1,0,0.0D0,0.0D0,1.0D0,1.0D0,1.0D0,1.0D0,27.5D0,           37P     56
1.0D0,0.0D0,0.0D0,1.0D0,0.0D0,0.0D0,1.0D0,0.0D0,0.0D0,0.0D0;          37P     57
126,1,1,0,0,1,0,0.0D0,0.0D0,1.0D0,1.0D0,1.0D0,1.0D0,                  39P     58
-25.497011680261D0,-15.272229570452D0,0.0D0,-25.497011680261D0,       39P     59
-15.272229570452D0,.8D0,0.0D0,1.0D0,0.0D0,0.0D0,0.0D0;                39P     60
126,1,1,0,0,1,0,0.0D0,0.0D0,1.0D0,1.0D0,1.0D0,1.0D0,0.0D0,1.0D0,      41P     61
0.0D0,0.0D0,0.0D0,0.0D0,0.0D0,1.0D0,0.0D0,0.0D0,0.0D0;                41P     62
508,4,0,7,5,1,1,1,31,0,7,4,1,1,1,33,0,7,6,1,1,1,37,0,7,7,0,1,1,       43P     63
41;                                                                   43P     64
510,27,1,1,43;                                                        45P     65
128,1,1,1,1,0,0,1,0,0,0.0D0,0.0D0,1.0D0,1.0D0,0.0D0,0.0D0,1.0D0,      47P     66
1.0D0,1.0D0,1.0D0,1.0D0,1.0D0,-48.597011680261D0,                     47P     67
-26.822229570452D0,.8D0,-24.397011680261D0,-26.822229570452D0,        47P     68
.8D0,-48.597011680261D0,-14.722229570452D0,.8D0,                      47P     69
-24.397011680261D0,-14.722229570452D0,.8D0,0.0D0,1.0D0,0.0D0,         47P     70
1.0D0;                                                                47P     71
126,1,1,0,0,1,0,0.0D0,0.0D0,27.5D0,27.5D0,1.0D0,1.0D0,                49P     72
-25.497011680261D0,-26.272229570452D0,.8D0,-47.497011680261D0,        49P     73
-26.272229570452D0,.8D0,0.0D0,27.5D0,0.0D0,0.0D0,0.0D0;               49P     74
126,1,1,0,0,1,0,0.0D0,0.0D0,27.5D0,27.5D0,1.0D0,1.0D0,                51P     75
.045454545454546D0,.045454545454546D0,0.0D0,.95454545454545D0,        51P     76
.045454545454546D0,0.0D0,0.0D0,27.5D0,0.0D0,0.0D0,0.0D0;              51P     77
126,1,1,0,0,1,0,0.0D0,0.0D0,13.75D0,13.75D0,1.0D0,1.0D0,              53P     78
-25.497011680261D0,-15.272229570452D0,.8D0,-25.497011680261D0,        53P     79
-26.272229570452D0,.8D0,0.0D0,13.75D0,0.0D0,0.0D0,0.0D0;              53P     80
126,1,1,0,0,1,0,0.0D0,0.0D0,13.75D0,13.75D0,1.0D0,1.0D0,              55P     81
.95454545454545D0,.045454545454546D0,0.0D0,.95454545454545D0,         55P     82
.95454545454545D0,0.0D0,0.0D0,13.75D0,0.0D0,0.0D0,0.0D0;              55P     83
126,1,1,0,0,1,0,0.0D0,0.0D0,27.5D0,27.5D0,1.0D0,1.0D0,                57P     84
.95454545454545D0,.95454545454545D0,0.0D0,.045454545454546D0,         57P     85
.95454545454545D0,0.0D0,0.0D0,27.5D0,0.0D0,0.0D0,0.0D0;               57P     86
126,1,1,0,0,1,0,0.0D0,0.0D0,13.75D0,13.75D0,1.0D0,1.0D0,              59P     87
.045454545454546D0,.95454545454545D0,0.0D0,.045454545454546D0,        59P     88
.045454545454546D0,0.0D0,0.0D0,13.75D0,0.0D0,0.0D0,0.0D0;             59P     89
508,4,0,7,8,0,1,1,51,0,7,9,0,1,1,55,0,7,6,0,1,1,57,0,7,3,0,1,1,       61P     90
59;                                                                   61P     91
510,47,1,1,61;                                                        63P     92
128,1,1,1,1,0,0,1,0,0,0.0D0,0.0D0,27.5D0,27.5D0,0.0D0,0.0D0,          65P     93
1.0D0,1.0D0,1.0D0,1.0D0,1.0D0,1.0D0,-47.497011680261D0,               65P     94
-26.272229570452D0,0.0D0,-25.497011680261D0,-26.272229570452D0,       65P     95
0.0D0,-47.497011680261D0,-26.272229570452D0,.8D0,                     65P     96
-25.497011680261D0,-26.272229570452D0,.8D0,0.0D0,27.5D0,0.0D0,        65P     97
1.0D0;                                                                65P     98
126,1,1,0,0,1,0,0.0D0,0.0D0,27.5D0,27.5D0,1.0D0,1.0D0,                67P     99
-47.497011680261D0,-26.272229570452D0,0.0D0,-25.497011680261D0,       67P    100
-26.272229570452D0,0.0D0,0.0D0,27.5D0,0.0D0,0.0D0,0.0D0;              67P    101
126,1,1,0,0,1,0,0.0D0,0.0D0,1.0D0,1.0D0,1.0D0,1.0D0,0.0D0,0.0D0,      69P    102
0.0D0,27.5D0,0.0D0,0.0D0,0.0D0,1.0D0,0.0D0,0.0D0,0.0D0;               69P    103
126,1,1,0,0,1,0,0.0D0,0.0D0,1.0D0,1.0D0,1.0D0,1.0D0,                  71P    104
-25.497011680261D0,-26.272229570452D0,.8D0,-25.497011680261D0,        71P    105
-26.272229570452D0,0.0D0,0.0D0,1.0D0,0.0D0,0.0D0,0.0D0;               71P    106
126,1,1,0,0,1,0,0.0D0,0.0D0,1.0D0,1.0D0,1.0D0,1.0D0,27.5D0,           73P    107
0.0D0,0.0D0,27.5D0,1.0D0,0.0D0,0.0D0,1.0D0,0.0D0,0.0D0,0.0D0;         73P    108
126,1,1,0,0,1,0,0.0D0,0.0D0,1.0D0,1.0D0,1.0D0,1.0D0,27.5D0,           75P    109
1.0D0,0.0D0,0.0D0,1.0D0,0.0D0,0.0D0,1.0D0,0.0D0,0.0D0,0.0D0;          75P    110
126,1,1,0,0,1,0,0.0D0,0.0D0,1.0D0,1.0D0,1.0D0,1.0D0,0.0D0,1.0D0,      77P    111
0.0D0,0.0D0,0.0D0,0.0D0,0.0D0,1.0D0,0.0D0,0.0D0,0.0D0;                77P    112
508,4,0,7,10,1,1,1,69,0,7,11,0,1,1,73,0,7,8,1,1,1,75,0,7,2,0,1,       79P    113
1,77;                                                                 79P    114
510,65,1,1,79;                                                        81P    115
128,1,1,1,1,0,0,1,0,0,0.0D0,0.0D0,1.0D0,1.0D0,0.0D0,0.0D0,1.0D0,      83P    116
1.0D0,1.0D0,1.0D0,1.0D0,1.0D0,-48.597011680261D0,                     83P    117
-14.722229570452D0,0.0D0,-24.397011680261D0,-14.722229570452D0,       83P    118
0.0D0,-48.597011680261D0,-26.822229570452D0,0.0D0,                    83P    119
-24.397011680261D0,-26.822229570452D0,0.0D0,0.0D0,1.0D0,0.0D0,        83P    120
1.0D0;                                                                83P    121
126,1,1,0,0,1,0,0.0D0,0.0D0,13.75D0,13.75D0,1.0D0,1.0D0,              85P    122
-25.497011680261D0,-26.272229570452D0,0.0D0,-25.497011680261D0,       85P    123
-15.272229570452D0,0.0D0,0.0D0,13.75D0,0.0D0,0.0D0,0.0D0;             85P    124
126,1,1,0,0,1,0,0.0D0,0.0D0,13.75D0,13.75D0,1.0D0,1.0D0,              87P    125
.95454545454545D0,.045454545454546D0,0.0D0,.95454545454545D0,         87P    126
.95454545454545D0,0.0D0,0.0D0,13.75D0,0.0D0,0.0D0,0.0D0;              87P    127
126,1,1,0,0,1,0,0.0D0,0.0D0,27.5D0,27.5D0,1.0D0,1.0D0,                89P    128
.95454545454545D0,.95454545454545D0,0.0D0,.045454545454546D0,         89P    129
.95454545454545D0,0.0D0,0.0D0,27.5D0,0.0D0,0.0D0,0.0D0;               89P    130
126,1,1,0,0,1,0,0.0D0,0.0D0,13.75D0,13.75D0,1.0D0,1.0D0,              91P    131
.045454545454546D0,.95454545454545D0,0.0D0,.045454545454546D0,        91P    132
.045454545454546D0,0.0D0,0.0D0,13.75D0,0.0D0,0.0D0,0.0D0;             91P    133
126,1,1,0,0,1,0,0.0D0,0.0D0,27.5D0,27.5D0,1.0D0,1.0D0,                93P    134
.045454545454546D0,.045454545454546D0,0.0D0,.95454545454545D0,        93P    135
.045454545454546D0,0.0D0,0.0D0,27.5D0,0.0D0,0.0D0,0.0D0;              93P    136
508,4,0,7,12,0,1,1,87,0,7,10,0,1,1,89,0,7,1,0,1,1,91,0,7,5,0,1,       95P    137
1,93;                                                                 95P    138
510,83,1,1,95;                                                        97P    139
128,1,1,1,1,0,0,1,0,0,0.0D0,0.0D0,13.75D0,13.75D0,0.0D0,0.0D0,        99P    140
1.0D0,1.0D0,1.0D0,1.0D0,1.0D0,1.0D0,-25.497011680261D0,               99P    141
-26.272229570452D0,0.0D0,-25.497011680261D0,-15.272229570452D0,       99P    142
0.0D0,-25.497011680261D0,-26.272229570452D0,.8D0,                     99P    143
-25.497011680261D0,-15.272229570452D0,.8D0,0.0D0,13.75D0,0.0D0,       99P    144
1.0D0;                                                                99P    145
126,1,1,0,0,1,0,0.0D0,0.0D0,1.0D0,1.0D0,1.0D0,1.0D0,0.0D0,0.0D0,     101P    146
0.0D0,13.75D0,0.0D0,0.0D0,0.0D0,1.0D0,0.0D0,0.0D0,0.0D0;             101P    147
126,1,1,0,0,1,0,0.0D0,0.0D0,1.0D0,1.0D0,1.0D0,1.0D0,13.75D0,         103P    148
0.0D0,0.0D0,13.75D0,1.0D0,0.0D0,0.0D0,1.0D0,0.0D0,0.0D0,0.0D0;       103P    149
126,1,1,0,0,1,0,0.0D0,0.0D0,1.0D0,1.0D0,1.0D0,1.0D0,13.75D0,         105P    150
1.0D0,0.0D0,0.0D0,1.0D0,0.0D0,0.0D0,1.0D0,0.0D0,0.0D0,0.0D0;         105P    151
126,1,1,0,0,1,0,0.0D0,0.0D0,1.0D0,1.0D0,1.0D0,1.0D0,0.0D0,1.0D0,     107P    152
0.0D0,0.0D0,0.0D0,0.0D0,0.0D0,1.0D0,0.0D0,0.0D0,0.0D0;               107P    153
508,4,0,7,12,1,1,1,101,0,7,7,1,1,1,103,0,7,9,1,1,1,105,0,7,11,1,     109P    154
1,1,107;                                                             109P    155
510,99,1,1,109;                                                      111P    156
514,6,25,1,45,1,63,1,81,1,97,1,111,1;                                113P    157
186,113,1,0;                                                         115P    158
S      1G      3D    116P    158                                        T      1
